PDA

View Full Version : grateful dead song. ripple


Kyorta
08-23-2003, 07:21 PM
can someone please work out how to play that bit at the beginning the bit over the chords at the very start that they sing later in the song ive been trying to figure it out for ages
anyone who doesent know the song again. its
ripple by the grateful dead. i dont care about the chords i just need to know who to play that little tune.

thanks.

Kyorta
08-25-2003, 01:27 PM
ok ive worked out a bit of it finally and i found out it is an olsd folk song and the grateful dead one is a cover

E----------------------------
B----------------------------
G----------------------------
D--------------4-3-2-0----
A-1-1-2-4-4-----------2--
e----------------------------

i dont this this is right but hopefully this will inspire someone whos good at figuring out stuff by ear to work it out properly

2 stix
08-25-2003, 04:16 PM
the first few notes are:
the song is in g
E-------------------- E----------------------
B-------------------- B----------------------
G-------------------- G---2--4---2---4---2--0
D----------0--------- D---------------------
A----2--3------------
E--3-----------------and then

+Aħ4++̣$"^%&%
09-04-2005, 05:25 AM
12345