PDA

View Full Version : I couldn't find one so I made one


Cramboli
10-02-2004, 11:33 AM
I couldn't find one so I made a thread for people who want to put there tabs up that MX tabs won't accept like your own tabs.
and so this doesn't get ruined DON'T STEAL THEM JUST PLAY AND CRIT IF YOU WANT.

tabassist-Cramboli-
song-punk rock killer

^=bend up
+=release pluck
~=4second ring
*=half second beat

EXTREMLEY HEAVY
whole song on (E)

(INTRO-Verses) first timeX3
E0-0000-7-7777/9-9999\5-5555-/12+

(CHORUS)
E0-0000-7-7777/9-9999\5-5555~55-3-003-0004-003-0004-003-0002-003-0004*1

(CONT. CHORUS)
E003-001-003-0001-003-001-003-0001^*

________x9
|Verses|
|Chorus|

solo x2
E1/77777\22222/3*5*00000
E1/77777\22222/4*6*11111

StormX
10-02-2004, 12:17 PM
A song played only on one string...very interesting..

Trooper
10-02-2004, 12:18 PM
Knowing what instrument it's meant to be played on tends to help.
But I'm going to assume it's the bass?

Cramboli
10-02-2004, 12:50 PM
yeah oops anywho

one of my more complex songs

Tabbed by "Cramboli"
110%correct
standard tuning

(After notes)
*1second ring
~2second ring
~~4second ring


(intro) X2
G---3----3--3----3--3---3--3----3
D-1--111-------------------------
A---------2--222---------1--111--
E------------------2--222---------

---3----3--3----3--3---3--3----3
-1--111-------------------------
---------2--222---------1--111--
------------------2--222---------

---3----3--3---3---3----3---3----3
-1--111---------------------------
---------2--222-0---------1--111--
------------------2--222-0--------

--------------------------------
--------------------------------
22222222\11111111-------------
-------------------22222222\11111111

--------------------------------
-------------------111111111111111
22222222\11111111---------------
--------------------------------

-------------4----4---4----4----4----4---4----4
2*--1*-----2--222------------------------------
--1*--00000---------3--333-------------2--222--
------------------------------3--333-----------

--4----4---4----4----4----4---4----4-
2--222-------------------------------
---------3--333--0----------2--222---
-------------------3--333--0---------

--4----4---4----4----4----4---4----4-
2--222--0----------------------------
----------3--333--0----------2--222--
--------------------3--333--0---------

----------------------------------
----------------------------------
33333333\22222222-----------------
-------------------33333333\22222222

----------------------------------
-------------------222222222222222--
33333333\22222222-----------------
----------------------------------

---------------3----3--3----3--3---3-3---3
3*--2*-------1--111----------------------
--2*--11111----------2--222--------1-111-
-------------------------------2-222-------

---3----3--3----3--3---3--3----3
-1--111-------------------------
----------2--222---------1--111--
-----------------2--222---------

---3----3--3---3---3----3---3----3
-1--111---------------------------
----------2--222-0---------1--111--
-------------------2--222-0--------


--------------------------------
--------------------------------
22222222\11111111---------------
-------------------22222222\11111111

--------------------------------
-------------------111111111111111
22222222\11111111---------------
--------------------------------

---------------------
2*--1*---------------
--1*--00000----------
------------3*2*1*0~-
x3
------------------------------------
------------------------------------
------------------------------------
-00000000/22222222/33333333/55555555

------------------
------------------
------------------
-0~2~3~-0~5~3~2-1-

---3----3--3----3--3---3--3----3
-1--111-------------------------
---------2--222---------1--111--
-----------------2--222---------

---3----3--3---3---3----3---3----3*
-1--111---------------------------
---------2--222-0---------1--111--
------------------2--222-0--------

Cramboli
10-02-2004, 01:06 PM
pretty interesting?

Cramboli
10-02-2004, 01:29 PM
tabber-cramboli
song-UNKNOWN....YET

BASS TAB

hard in a way

standard tuning

(G-string 11's and 10's throughout the song)

(SLOW) (SPEED UP)

G--10-------10--10---------10---11-----11-10-10
D-8--8-8-8-8------------------------------------
A--------------8----8-8-8-8----9---9999------8-
E------------------------------------------9-----

(FAST)

G---10-----10--10-----10--11-----11----10-10--10
D-88--88888--------------------------------------
A------------88--88888--99--99999---------------
E------------------------------------99-----88---

(FASTER)

G----10-------10---------10-------10-------11-------11-------10-10--10
D8888--8888888--888---------------------------------------------------
A--------------------8888--8888888--8889999--9999999--999-------88--
G------------------------------------------------------------99---------

(FAST)

G---10-------10---10------10----11------11--10-10--10
D-88--88-888--8---------------------------------------
A---------------88--88-888--8-99--99-999-------------
E-------------------------------------------99-----88--

(FASTER)

G----10-------10---------10-------10--------11--------11-----10-10--10
D8888--8888888--888----------------------------------------------------
A--------------------8888--8888888--8889999--9999999--999-------88--
G------------------------------------------------------------99---------

(FAST)

G---10------10---10------10--11------11---10-10--10
D-88--88888-----------------------------------------
A--------------88---88888--99--99999---------------
E----------------------------------------99-------88-

Repeat as comffy

BassMan182
10-02-2004, 01:33 PM
this guys really going for it. although i suspect the reason they don't have anywhere to upload tabs is because, unless you know how the rhythm is meant to be played it kind of ruins it. i suppose you could experiment with it yourself though.

Cramboli
10-02-2004, 01:37 PM
thats the joy of it make your own rythm for it.

Trigger_003
10-02-2004, 09:55 PM
Er, hate to burst your bubble, but there is a tab section. It's near the bottom the main page of this forum... there's nothing saying you can't post em there...
ahh well.

Mark. A
10-03-2004, 03:09 AM
^^^^

Rushki Smushki
10-03-2004, 06:11 AM
Maybe the tabs aren't accepted because they are bad?

Cramboli
10-03-2004, 08:44 AM
BAD as in....good cool

StormX
10-03-2004, 12:57 PM
Bad as in they're just random things you make up that you probably can't play.

Cramboli
12-07-2004, 10:58 AM
Bad as in they're just random things you make up that you probably can't play.
bull$hit you try playing it it is hard.....

moaner
12-07-2004, 11:28 AM
how about font=courer new?

morrissey
12-07-2004, 01:39 PM
bull$hit you try playing it it is hard.....

how about don't bump a 2 month old thread of tabs that no one wanted to comment on in the first place?

theabstract
12-07-2004, 02:18 PM
this thread isn't going anywhere unless you put recordings with the tab...pffft tab hehe.

KKKKKocaine
12-07-2004, 02:44 PM
This is a bad idea.
As your unofficial demi-mod, I declare this thread locked.
No more posting in it please :)