Death Symbolic
» Back to review

Comments:Add a Comment 
ChuckyTruant
April 14th 2013


15725 Comments

Album Rating: 5.0 | Sound Off

He didn't specify. While I don't agree with him, I don't disagree either. By the time tPoS came out, they definitely weren't just a dm band anymore

ChuckyTruant
April 14th 2013


15725 Comments

Album Rating: 5.0 | Sound Off

heheh agreed

evilford
April 14th 2013


23031 Comments

Album Rating: 4.5 | Sound Off

SBG is p thrashy

pissbore
April 14th 2013


10005 Comments


By the time tPoS came out, they definitely weren't just a dm band anymore


lol even on human it was obvious that they werent "just a dm band" anymore

and ITP was death completely securing its own realm which only continued to expand



DrHouseSchuldiner
April 14th 2013


5643 Comments


Death is not just a regular DM band


Death is just life

ChuckyTruant
April 14th 2013


15725 Comments

Album Rating: 5.0 | Sound Off

no shit pissbore

pissbore
April 14th 2013


10005 Comments


its all about that descending riff on beyond the unholy grave

oltnabrick
April 14th 2013


32268 Comments


mezzislife

Digging: Delhi Escorts - Delhi Escorts

climactic
April 14th 2013


20273 Comments


shhhhhhhh

ChuckyTruant
April 14th 2013


15725 Comments

Album Rating: 5.0 | Sound Off

D ---------------------

A ---------------------

F ---------------------

C ---------------------

G ---5-----3----------

D -3---3-1---1--------

climactic
April 14th 2013


20273 Comments


first one to name the riff gets a cookie

D -----------------------------------------------------------------
A -----------------------------------------------------------------
F ------------------------------------------------------------------
C ----------9-----------------8--------------9---------5--4-------
G --------- 7-----------------6--------------7---------3--2--3--5
D --0-000------------0-000---------0-000------------------1--3

pissbore
April 14th 2013


10005 Comments


without judgement?

climactic
April 14th 2013


20273 Comments


nope. its the intro!

pissbore
April 14th 2013


10005 Comments


oh duh crystal mountain

ChuckyTruant
April 14th 2013


15725 Comments

Album Rating: 5.0 | Sound Off

the intro is what I tabbed silly!

pissbore
April 14th 2013


10005 Comments


no its definitely the intro to crystal mountain

pissbore
April 14th 2013


10005 Comments


i dont even play guitar i just had to use my very limited knowledge of tablature to synchronize the riff in my head

pissbore
April 14th 2013


10005 Comments


lets play again

ChuckyTruant
April 14th 2013


15725 Comments

Album Rating: 5.0 | Sound Off

ok gimme a sec

ChuckyTruant
April 14th 2013


15725 Comments

Album Rating: 5.0 | Sound Off

G -------------------------------------12-10-9-10------------------9-10--

D -0-0-0-0-0-0-0-0-0-0-0-0-0-0-0-0---------------0-0-0-0-0-0-0-0-------



You have to be logged in to post a comment. Login | Create a Profile





FAQ // STAFF & CONTRIBUTORS // SITE FORUM // CONTACT US

Bands: A B C D E F G H I J K L M N O P Q R S T U V W X Y Z


Site Copyright 2005-2014 Sputnikmusic.com
All Album Reviews Displayed With Permission of Authors | Privacy Policy